  0
SECTION
  2
HEADER
  9
$ACADVER
  1
AC1009
  9
$INSBASE
 10
0.0
 20
0.0
 30
0.0
  9
$EXTMIN
 10
-0.0007598509539335
 20
-0.0005492828779978
 30
-0.0000000349181948
  9
$EXTMAX
 10
12.900723346860779
 20
8.9000213841215192
 30
0.0000000814935747
  9
$LIMMIN
 10
0.0
 20
0.0
  9
$LIMMAX
 10
12.0
 20
9.0
  9
$ORTHOMODE
 70
     0
  9
$REGENMODE
 70
     1
  9
$FILLMODE
 70
     1
  9
$QTEXTMODE
 70
     0
  9
$MIRRTEXT
 70
     0
  9
$DRAGMODE
 70
     2
  9
$LTSCALE
 40
1.0
  9
$OSMODE
 70
    39
  9
$ATTMODE
 70
     1
  9
$TEXTSIZE
 40
0.2
  9
$TRACEWID
 40
0.05
  9
$TEXTSTYLE
  7
STANDARD
  9
$CLAYER
  8
CENTER
  9
$CELTYPE
  6
BYLAYER
  9
$CECOLOR
 62
   256
  9
$DIMSCALE
 40
1.0
  9
$DIMASZ
 40
0.18
  9
$DIMEXO
 40
0.0625
  9
$DIMDLI
 40
0.38
  9
$DIMRND
 40
0.0
  9
$DIMDLE
 40
0.0
  9
$DIMEXE
 40
0.18
  9
$DIMTP
 40
0.0
  9
$DIMTM
 40
0.0
  9
$DIMTXT
 40
0.18
  9
$DIMCEN
 40
0.09
  9
$DIMTSZ
 40
0.0
  9
$DIMTOL
 70
     0
  9
$DIMLIM
 70
     0
  9
$DIMTIH
 70
     1
  9
$DIMTOH
 70
     1
  9
$DIMSE1
 70
     0
  9
$DIMSE2
 70
     0
  9
$DIMTAD
 70
     0
  9
$DIMZIN
 70
     0
  9
$DIMBLK
  1

  9
$DIMASO
 70
     1
  9
$DIMSHO
 70
     1
  9
$DIMPOST
  1

  9
$DIMAPOST
  1

  9
$DIMALT
 70
     0
  9
$DIMALTD
 70
     2
  9
$DIMALTF
 40
25.399999999999999
  9
$DIMLFAC
 40
1.0
  9
$DIMTOFL
 70
     0
  9
$DIMTVP
 40
0.0
  9
$DIMTIX
 70
     0
  9
$DIMSOXD
 70
     0
  9
$DIMSAH
 70
     0
  9
$DIMBLK1
  1

  9
$DIMBLK2
  1

  9
$DIMSTYLE
  2
STANDARD
  9
$DIMCLRD
 70
     0
  9
$DIMCLRE
 70
     0
  9
$DIMCLRT
 70
     0
  9
$DIMTFAC
 40
1.0
  9
$DIMGAP
 40
0.09
  9
$LUNITS
 70
     2
  9
$LUPREC
 70
     4
  9
$SKETCHINC
 40
0.1
  9
$FILLETRAD
 40
0.35
  9
$AUNITS
 70
     0
  9
$AUPREC
 70
     0
  9
$MENU
  1
.
  9
$ELEVATION
 40
0.0
  9
$PELEVATION
 40
0.0
  9
$THICKNESS
 40
0.0
  9
$LIMCHECK
 70
     0
  9
$BLIPMODE
 70
     0
  9
$CHAMFERA
 40
0.0
  9
$CHAMFERB
 40
0.0
  9
$SKPOLY
 70
     0
  9
$TDCREATE
 40
2454256.6703627668
  9
$TDUPDATE
 40
2454274.8448862392
  9
$TDINDWG
 40
0.1759257407
  9
$TDUSRTIMER
 40
0.1759237616
  9
$USRTIMER
 70
     1
  9
$ANGBASE
 50
0.0
  9
$ANGDIR
 70
     0
  9
$PDMODE
 70
     0
  9
$PDSIZE
 40
0.0
  9
$PLINEWID
 40
0.0
  9
$COORDS
 70
     1
  9
$SPLFRAME
 70
     0
  9
$SPLINETYPE
 70
     6
  9
$SPLINESEGS
 70
     8
  9
$ATTDIA
 70
     0
  9
$ATTREQ
 70
     1
  9
$HANDLING
 70
     1
  9
$HANDSEED
  5
267
  9
$SURFTAB1
 70
     6
  9
$SURFTAB2
 70
     6
  9
$SURFTYPE
 70
     6
  9
$SURFU
 70
     6
  9
$SURFV
 70
     6
  9
$UCSNAME
  2

  9
$UCSORG
 10
0.0
 20
0.0
 30
0.0
  9
$UCSXDIR
 10
1.0
 20
0.0
 30
0.0
  9
$UCSYDIR
 10
0.0
 20
1.0
 30
0.0
  9
$PUCSNAME
  2

  9
$PUCSORG
 10
0.0
 20
0.0
 30
0.0
  9
$PUCSXDIR
 10
1.0
 20
0.0
 30
0.0
  9
$PUCSYDIR
 10
0.0
 20
1.0
 30
0.0
  9
$USERI1
 70
     0
  9
$USERI2
 70
     0
  9
$USERI3
 70
     0
  9
$USERI4
 70
     0
  9
$USERI5
 70
     0
  9
$USERR1
 40
0.0
  9
$USERR2
 40
0.0
  9
$USERR3
 40
0.0
  9
$USERR4
 40
0.0
  9
$USERR5
 40
0.0
  9
$WORLDVIEW
 70
     1
  9
$SHADEDGE
 70
     3
  9
$SHADEDIF
 70
    70
  9
$TILEMODE
 70
     1
  9
$MAXACTVP
 70
    64
  9
$PLIMCHECK
 70
     0
  9
$PEXTMIN
 10
0.0
 20
0.0
 30
0.0
  9
$PEXTMAX
 10
0.0
 20
0.0
 30
0.0
  9
$PLIMMIN
 10
0.0
 20
0.0
  9
$PLIMMAX
 10
12.0
 20
9.0
  9
$UNITMODE
 70
     0
  9
$VISRETAIN
 70
     1
  9
$PLINEGEN
 70
     0
  9
$PSLTSCALE
 70
     1
  0
ENDSEC
  0
SECTION
  2
TABLES
  0
TABLE
  2
VPORT
 70
     1
  0
VPORT
  2
*ACTIVE
 70
     0
 10
0.0
 20
0.0
 11
1.0
 21
1.0
 12
6.4499817479534238
 22
4.4497360506217607
 13
0.0
 23
0.0
 14
0.5
 24
0.5
 15
0.5
 25
0.5
 16
0.0
 26
0.0
 36
1.0
 17
0.0
 27
0.0
 37
0.0
 40
8.9955945531240662
 41
2.180035650623886
 42
50.0
 43
0.0
 44
0.0
 50
0.0
 51
0.0
 71
     0
 72
  1000
 73
     1
 74
     2
 75
     0
 76
     0
 77
     0
 78
     0
  0
ENDTAB
  0
TABLE
  2
LTYPE
 70
     5
  0
LTYPE
  2
CONTINUOUS
 70
     0
  3
Solid line
 72
    65
 73
     0
 40
0.0
  0
LTYPE
  2
CENTER
 70
     0
  3
Center ____ _ ____ _ ____ _ ____ _ ____ _ ____
 72
    65
 73
     4
 40
2.0
 49
1.25
 49
-0.25
 49
0.25
 49
-0.25
  0
LTYPE
  2
HIDDEN
 70
     0
  3
Hidden __ __ __ __ __ __ __ __ __ __ __ __ __ __
 72
    65
 73
     2
 40
0.375
 49
0.25
 49
-0.125
  0
LTYPE
  2
PHANTOM
 70
     0
  3
Phantom ______  __  __  ______  __  __  ______
 72
    65
 73
     6
 40
2.5
 49
1.25
 49
-0.25
 49
0.25
 49
-0.25
 49
0.25
 49
-0.25
  0
ENDTAB
  0
TABLE
  2
LAYER
 70
     4
  0
LAYER
  2
0
 70
     0
 62
     7
  6
CONTINUOUS
  0
LAYER
  2
CONSTRUCTION
 70
     0
 62
     6
  6
PHANTOM
  0
LAYER
  2
HIDDEN
 70
     0
 62
     4
  6
HIDDEN
  0
LAYER
  2
CENTER
 70
     0
 62
     5
  6
CENTER
  0
ENDTAB
  0
TABLE
  2
STYLE
 70
     2
  0
STYLE
  2
STANDARD
 70
     0
 40
0.0
 41
1.0
 50
0.0
 71
     0
 42
0.2
  3
txt
  4

  0
STYLE
  2

 70
     1
 40
0.0
 41
1.0
 50
0.0
 71
     0
 42
0.2
  3
ltypeshp.shx
  4

  0
ENDTAB
  0
TABLE
  2
VIEW
 70
     0
  0
ENDTAB
  0
TABLE
  2
UCS
 70
     0
  0
ENDTAB
  0
TABLE
  2
APPID
 70
     3
  0
APPID
  2
ACAD
 70
     0
  0
APPID
  2
ACAD_EXEMPT_FROM_CAD_STANDARDS
 70
     0
  0
APPID
  2
ACAECLAYERSTANDARD
 70
     0
  0
ENDTAB
  0
TABLE
  2
DIMSTYLE
 70
     2
  0
DIMSTYLE
  2
STANDARD
 70
     0
  3

  4

  5

  6

  7

 40
1.0
 41
0.18
 42
0.0625
 43
0.38
 44
0.18
 45
0.0
 46
0.0
 47
0.0
 48
0.0
140
0.18
141
0.09
142
0.0
143
25.399999999999999
144
1.0
145
0.0
146
1.0
147
0.09
 71
     0
 72
     0
 73
     1
 74
     1
 75
     0
 76
     0
 77
     0
 78
     0
170
     0
171
     2
172
     0
173
     0
174
     0
175
     0
176
     0
177
     0
178
     0
  0
ENDTAB
  0
ENDSEC
  0
SECTION
  2
BLOCKS
  0
BLOCK
  8
0
  2
$MODEL_SPACE
 70
     0
 10
0.0
 20
0.0
 30
0.0
  3
$MODEL_SPACE
  1

  0
ENDBLK
  5
21
  8
0
  0
BLOCK
 67
     1
  8
0
  2
$PAPER_SPACE
 70
     0
 10
0.0
 20
0.0
 30
0.0
  3
$PAPER_SPACE
  1

  0
ENDBLK
  5
5B
 67
     1
  8
0
  0
ENDSEC
  0
SECTION
  2
ENTITIES
  0
CIRCLE
  5
C4
  8
0
 10
0.25
 20
0.25
 30
0.0
 40
0.1
  0
CIRCLE
  5
C5
  8
0
 10
0.2499999999999982
 20
8.6500000000000004
 30
0.0
 40
0.1
  0
CIRCLE
  5
C6
  8
0
 10
12.65
 20
8.6500000000000004
 30
0.0
 40
0.1
  0
CIRCLE
  5
C7
  8
0
 10
12.65
 20
0.25
 30
0.0
 40
0.1
  0
CIRCLE
  5
C8
  8
0
 10
6.4500000000000002
 20
1.399999999999999
 30
0.0
 40
0.5625
  0
CIRCLE
  5
C9
  8
0
 10
6.4500000000000002
 20
3.9500000000000002
 30
0.0
 40
0.5625
  0
LINE
  5
CA
  8
0
 10
0.0
 20
0.0
 30
0.0
 11
12.9
 21
0.0
 31
0.0
  0
LINE
  5
CB
  8
0
 10
12.9
 20
0.0
 30
0.0
 11
12.9
 21
8.9000000000000004
 31
0.0
  0
LINE
  5
CC
  8
0
 10
12.9
 20
8.9000000000000004
 30
0.0
 11
0.0
 21
8.9000000000000004
 31
0.0
  0
LINE
  5
CD
  8
0
 10
0.0
 20
8.9000000000000004
 30
0.0
 11
0.0
 21
0.0
 31
0.0
  0
CIRCLE
  5
D1
  8
0
 10
1.75
 20
2.9999999999999978
 30
0.0
 40
0.5625
  0
CIRCLE
  5
D3
  8
0
 10
11.15
 20
3.0
 30
0.0
 40
0.5625
  0
CIRCLE
  5
D9
  8
0
 10
3.5
 20
5.299999999999998
 30
0.0
 40
0.078125
  0
CIRCLE
  5
DA
  8
0
 10
3.5
 20
2.75
 30
0.0
 40
0.078125
  0
CIRCLE
  5
DB
  8
0
 10
3.5
 20
0.9000000000000004
 30
0.0
 40
0.078125
  0
CIRCLE
  5
DC
  8
0
 10
9.4000000000000004
 20
0.9000000000000004
 30
0.0
 40
0.078125
  0
CIRCLE
  5
DD
  8
0
 10
9.4000000000000004
 20
2.75
 30
0.0
 40
0.078125
  0
CIRCLE
  5
DE
  8
0
 10
9.4000000000000004
 20
5.2999999999999989
 30
0.0
 40
0.078125
  0
CIRCLE
  5
10B
  8
0
 10
5.075000000000002
 20
8.0
 30
0.0
 40
0.1
  0
CIRCLE
  5
10C
  8
0
 10
7.8250000000000011
 20
8.0
 30
0.0
 40
0.1
  0
CIRCLE
  5
10D
  8
0
 10
5.075000000000002
 20
6.0
 30
0.0
 40
0.1
  0
CIRCLE
  5
10E
  8
0
 10
7.8250000000000011
 20
6.0
 30
0.0
 40
0.1
  0
LINE
  5
10F
  8
HIDDEN
 10
4.543999999999996
 20
8.25
 30
0.0
 11
8.3560000000000016
 21
8.25
 31
0.0
  0
LINE
  5
110
  8
HIDDEN
 10
4.544000000000004
 20
5.75
 30
0.0
 11
8.3560000000000016
 21
5.75
 31
0.0
  0
LINE
  5
111
  8
HIDDEN
 10
4.543999999999996
 20
8.2499999999999911
 30
0.0
 11
4.543999999999996
 21
5.75
 31
0.0
  0
LINE
  5
112
  8
HIDDEN
 10
8.3560000000000141
 20
8.25
 30
0.0
 11
8.3560000000000088
 21
5.75
 31
0.0
  0
CIRCLE
  5
11C
  8
0
 10
1.8999999999999999
 20
6.2000000000000002
 30
0.0
 40
0.7875
  0
CIRCLE
  5
11D
  8
0
 10
3.0613999999999999
 20
5.038599999999998
 30
0.0
 40
0.1
  0
CIRCLE
  5
11E
  8
0
 10
0.7386
 20
5.038599999999998
 30
0.0
 40
0.1
  0
CIRCLE
  5
11F
  8
0
 10
3.0613999999999999
 20
7.3613999999999997
 30
0.0
 40
0.1
  0
CIRCLE
  5
120
  8
0
 10
0.7386
 20
7.3613999999999997
 30
0.0
 40
0.1
  0
LINE
  5
121
  8
HIDDEN
 10
2.9675000000000029
 20
4.782499999999998
 30
0.0
 11
0.8325000000000034
 21
4.782499999999998
 31
0.0
  0
LINE
  5
122
  8
HIDDEN
 10
0.4825000000000036
 20
5.1324999999999994
 30
0.0
 11
0.4825000000000034
 21
7.2675000000000018
 31
0.0
  0
LINE
  5
123
  8
HIDDEN
 10
0.8325000000000034
 20
7.6175000000000024
 30
0.0
 11
2.9675000000000038
 21
7.6175000000000042
 31
0.0
  0
LINE
  5
124
  8
HIDDEN
 10
3.3175000000000039
 20
7.2675000000000036
 30
0.0
 11
3.317500000000003
 21
5.1324999999999994
 31
0.0
  0
CIRCLE
  5
125
  8
0
 10
5.075000000000002
 20
7.0
 30
0.0
 40
0.25
  0
CIRCLE
  5
126
  8
0
 10
7.8250000000000011
 20
7.0
 30
0.0
 40
0.25
  0
CIRCLE
  5
139
  8
CENTER
 10
1.75
 20
2.9999999999999978
 30
0.0
 40
0.75
  0
CIRCLE
  5
141
  8
CENTER
 10
11.15
 20
3.0
 30
0.0
 40
0.75
  0
ARC
  5
14C
  8
HIDDEN
 10
2.9675000000000029
 20
5.1324999999999994
 30
0.0
 40
0.35
 50
270.0
 51
0.0
  0
ARC
  5
14D
  8
HIDDEN
 10
0.8325000000000034
 20
5.1324999999999994
 30
0.0
 40
0.35
 50
180.0
 51
270.0
  0
ARC
  5
14E
  8
HIDDEN
 10
0.8325000000000034
 20
7.2675000000000018
 30
0.0
 40
0.35
 50
90.0
 51
180.0
  0
ARC
  5
14F
  8
HIDDEN
 10
2.9675000000000038
 20
7.2675000000000036
 30
0.0
 40
0.35
 50
0.0
 51
90.0
  0
CIRCLE
  5
150
  8
0
 10
5.8250000000000002
 20
4.5750000000000002
 30
0.0
 40
0.08
  0
CIRCLE
  5
152
  8
0
 10
7.0750000000000002
 20
3.3500000000000001
 30
0.0
 40
0.08
  0
CIRCLE
  5
153
  8
0
 10
5.8250000000000002
 20
1.9750000000000001
 30
0.0
 40
0.08
  0
CIRCLE
  5
154
  8
0
 10
7.0750000000000002
 20
0.75
 30
0.0
 40
0.08
  0
CIRCLE
  5
157
  8
0
 10
1.0
 20
2.9999999999999978
 30
0.0
 40
0.0625
  0
CIRCLE
  5
158
  8
0
 10
2.5
 20
2.9999999999999978
 30
0.0
 40
0.0625
  0
CIRCLE
  5
159
  8
0
 10
10.4
 20
2.9999999999999978
 30
0.0
 40
0.0625
  0
CIRCLE
  5
15A
  8
0
 10
11.9
 20
2.9999999999999978
 30
0.0
 40
0.0625
  0
ARC
  5
15D
  8
0
 10
4.0
 20
6.0999999999999988
 30
0.0
 40
0.3975
 50
112.40266590047
 51
247.59733409953
  0
LINE
  5
15E
  8
0
 10
3.8485074259245682
 20
6.4675000000000002
 30
0.0
 11
4.1514925740754309
 21
6.4675000000000002
 31
0.0
  0
LINE
  5
15F
  8
0
 10
3.8485074259245682
 20
5.732499999999999
 30
0.0
 11
4.1514925740754309
 21
5.732499999999999
 31
0.0
  0
ARC
  5
161
  8
0
 10
4.0
 20
6.0999999999999988
 30
0.0
 40
0.3975
 50
292.40266590047003
 51
67.597334099530016
  0
CIRCLE
  5
174
  8
0
 10
4.0
 20
8.009999999999998
 30
0.0
 40
0.1875
  0
LINE
  5
17C
  8
CENTER
 10
0.16
 20
0.25
 30
0.0
 11
0.3399999999999999
 21
0.25
 31
0.0
  0
LINE
  5
17D
  8
CENTER
 10
0.25
 20
0.16
 30
0.0
 11
0.25
 21
0.3399999999999999
 31
0.0
  0
LINE
  5
17E
  8
CENTER
 10
3.9099999999999988
 20
6.0999999999999988
 30
0.0
 11
4.0899999999999999
 21
6.0999999999999988
 31
0.0
  0
LINE
  5
17F
  8
CENTER
 10
4.0
 20
6.0099999999999989
 30
0.0
 11
4.0
 21
6.1900000000000013
 31
0.0
  0
LINE
  5
180
  8
CENTER
 10
3.4100000000000001
 20
0.9000000000000004
 30
0.0
 11
3.5899999999999981
 21
0.9000000000000004
 31
0.0
  0
LINE
  5
181
  8
CENTER
 10
3.5
 20
0.8100000000000003
 30
0.0
 11
3.5
 21
0.9900000000000003
 31
0.0
  0
LINE
  5
182
  8
CENTER
 10
3.4100000000000001
 20
2.75
 30
0.0
 11
3.5899999999999981
 21
2.75
 31
0.0
  0
LINE
  5
183
  8
CENTER
 10
3.5
 20
2.6600000000000001
 30
0.0
 11
3.5
 21
2.8399999999999981
 31
0.0
  0
LINE
  5
184
  8
CENTER
 10
3.4100000000000001
 20
5.299999999999998
 30
0.0
 11
3.5899999999999981
 21
5.299999999999998
 31
0.0
  0
LINE
  5
185
  8
CENTER
 10
3.5
 20
5.2099999999999991
 30
0.0
 11
3.5
 21
5.3899999999999979
 31
0.0
  0
LINE
  5
186
  8
CENTER
 10
2.9714
 20
5.038599999999998
 30
0.0
 11
3.1514000000000002
 21
5.038599999999998
 31
0.0
  0
LINE
  5
187
  8
CENTER
 10
3.0613999999999999
 20
4.9485999999999981
 30
0.0
 11
3.0613999999999999
 21
5.1285999999999978
 31
0.0
  0
LINE
  5
188
  8
CENTER
 10
0.6486000000000001
 20
5.038599999999998
 30
0.0
 11
0.8285999999999999
 21
5.038599999999998
 31
0.0
  0
LINE
  5
189
  8
CENTER
 10
0.7386
 20
4.9485999999999981
 30
0.0
 11
0.7386
 21
5.1285999999999978
 31
0.0
  0
LINE
  5
18A
  8
CENTER
 10
0.6486000000000001
 20
7.3613999999999997
 30
0.0
 11
0.8285999999999999
 21
7.3613999999999997
 31
0.0
  0
LINE
  5
18B
  8
CENTER
 10
0.7386
 20
7.271399999999999
 30
0.0
 11
0.7386
 21
7.4513999999999996
 31
0.0
  0
LINE
  5
18C
  8
CENTER
 10
2.9714
 20
7.3613999999999997
 30
0.0
 11
3.1514000000000002
 21
7.3613999999999997
 31
0.0
  0
LINE
  5
18D
  8
CENTER
 10
3.0613999999999999
 20
7.271399999999999
 30
0.0
 11
3.0613999999999999
 21
7.4513999999999996
 31
0.0
  0
LINE
  5
18E
  8
CENTER
 10
1.8099999999999989
 20
6.2000000000000002
 30
0.0
 11
1.99
 21
6.2000000000000002
 31
0.0
  0
LINE
  5
18F
  8
CENTER
 10
1.8999999999999999
 20
6.1100000000000003
 30
0.0
 11
1.8999999999999999
 21
6.2899999999999991
 31
0.0
  0
LINE
  5
190
  8
CENTER
 10
0.1599999999999982
 20
8.6500000000000004
 30
0.0
 11
0.3399999999999982
 21
8.6500000000000004
 31
0.0
  0
LINE
  5
191
  8
CENTER
 10
0.2499999999999982
 20
8.5600000000000005
 30
0.0
 11
0.2499999999999982
 21
8.7400000000000002
 31
0.0
  0
LINE
  5
192
  8
CENTER
 10
12.56
 20
8.6500000000000004
 30
0.0
 11
12.74
 21
8.6500000000000004
 31
0.0
  0
LINE
  5
193
  8
CENTER
 10
12.65
 20
8.5600000000000005
 30
0.0
 11
12.65
 21
8.7400000000000002
 31
0.0
  0
LINE
  5
194
  8
CENTER
 10
12.56
 20
0.25
 30
0.0
 11
12.74
 21
0.25
 31
0.0
  0
LINE
  5
195
  8
CENTER
 10
12.65
 20
0.16
 30
0.0
 11
12.65
 21
0.3399999999999999
 31
0.0
  0
LINE
  5
196
  8
CENTER
 10
11.06
 20
3.0
 30
0.0
 11
11.24
 21
3.0
 31
0.0
  0
LINE
  5
197
  8
CENTER
 10
11.15
 20
2.9100000000000001
 30
0.0
 11
11.15
 21
3.0899999999999981
 31
0.0
  0
LINE
  5
198
  8
CENTER
 10
11.81
 20
2.9999999999999978
 30
0.0
 11
11.99
 21
2.9999999999999978
 31
0.0
  0
LINE
  5
199
  8
CENTER
 10
11.9
 20
2.9099999999999979
 30
0.0
 11
11.9
 21
3.0899999999999981
 31
0.0
  0
LINE
  5
19A
  8
CENTER
 10
10.31
 20
2.9999999999999978
 30
0.0
 11
10.49
 21
2.9999999999999978
 31
0.0
  0
LINE
  5
19B
  8
CENTER
 10
10.4
 20
2.9099999999999979
 30
0.0
 11
10.4
 21
3.0899999999999981
 31
0.0
  0
LINE
  5
19C
  8
CENTER
 10
9.3100000000000005
 20
2.75
 30
0.0
 11
9.4900000000000002
 21
2.75
 31
0.0
  0
LINE
  5
19D
  8
CENTER
 10
9.4000000000000004
 20
2.6600000000000001
 30
0.0
 11
9.4000000000000004
 21
2.8399999999999981
 31
0.0
  0
LINE
  5
19E
  8
CENTER
 10
9.3100000000000005
 20
0.9000000000000004
 30
0.0
 11
9.4900000000000002
 21
0.9000000000000004
 31
0.0
  0
LINE
  5
19F
  8
CENTER
 10
9.4000000000000004
 20
0.8100000000000003
 30
0.0
 11
9.4000000000000004
 21
0.9900000000000003
 31
0.0
  0
LINE
  5
1A0
  8
CENTER
 10
9.3100000000000005
 20
5.2999999999999989
 30
0.0
 11
9.4900000000000002
 21
5.2999999999999989
 31
0.0
  0
LINE
  5
1A1
  8
CENTER
 10
9.4000000000000004
 20
5.2099999999999991
 30
0.0
 11
9.4000000000000004
 21
5.3899999999999988
 31
0.0
  0
LINE
  5
1B0
  8
CENTER
 10
1.659999999999999
 20
2.9999999999999978
 30
0.0
 11
1.8400000000000001
 21
2.9999999999999978
 31
0.0
  0
LINE
  5
1B1
  8
CENTER
 10
1.75
 20
2.9099999999999979
 30
0.0
 11
1.75
 21
3.0899999999999981
 31
0.0
  0
LINE
  5
1BA
  8
CENTER
 10
3.9100000000000001
 20
8.009999999999998
 30
0.0
 11
4.089999999999999
 21
8.009999999999998
 31
0.0
  0
LINE
  5
1BB
  8
CENTER
 10
4.0
 20
7.9199999999999964
 30
0.0
 11
4.0
 21
8.0999999999999979
 31
0.0
  0
LINE
  5
1BC
  8
CENTER
 10
3.9100000000000001
 20
7.0999999999999988
 30
0.0
 11
4.0899999999999981
 21
7.0999999999999988
 31
0.0
  0
LINE
  5
1BD
  8
CENTER
 10
4.0
 20
7.009999999999998
 30
0.0
 11
4.0
 21
7.1899999999999986
 31
0.0
  0
LINE
  5
1BE
  8
CENTER
 10
4.9850000000000021
 20
8.0
 30
0.0
 11
5.1650000000000018
 21
8.0
 31
0.0
  0
LINE
  5
1BF
  8
CENTER
 10
5.075000000000002
 20
7.9100000000000001
 30
0.0
 11
5.075000000000002
 21
8.0899999999999981
 31
0.0
  0
LINE
  5
1C0
  8
CENTER
 10
4.9850000000000021
 20
7.0
 30
0.0
 11
5.1650000000000018
 21
7.0
 31
0.0
  0
LINE
  5
1C1
  8
CENTER
 10
5.075000000000002
 20
6.9100000000000001
 30
0.0
 11
5.075000000000002
 21
7.0899999999999981
 31
0.0
  0
LINE
  5
1C2
  8
CENTER
 10
4.9850000000000021
 20
6.0
 30
0.0
 11
5.1650000000000018
 21
6.0
 31
0.0
  0
LINE
  5
1C3
  8
CENTER
 10
5.075000000000002
 20
5.9100000000000001
 30
0.0
 11
5.075000000000002
 21
6.0899999999999981
 31
0.0
  0
LINE
  5
1C4
  8
CENTER
 10
7.7350000000000021
 20
6.0
 30
0.0
 11
7.9150000000000018
 21
6.0
 31
0.0
  0
LINE
  5
1C5
  8
CENTER
 10
7.8250000000000011
 20
5.9100000000000001
 30
0.0
 11
7.8250000000000011
 21
6.0899999999999981
 31
0.0
  0
LINE
  5
1C6
  8
CENTER
 10
7.7350000000000021
 20
7.0
 30
0.0
 11
7.9150000000000018
 21
7.0
 31
0.0
  0
LINE
  5
1C7
  8
CENTER
 10
7.8250000000000011
 20
6.9100000000000001
 30
0.0
 11
7.8250000000000011
 21
7.0899999999999981
 31
0.0
  0
LINE
  5
1C8
  8
CENTER
 10
7.7350000000000021
 20
8.0
 30
0.0
 11
7.9150000000000018
 21
8.0
 31
0.0
  0
LINE
  5
1C9
  8
CENTER
 10
7.8250000000000011
 20
7.9100000000000001
 30
0.0
 11
7.8250000000000011
 21
8.0899999999999981
 31
0.0
  0
LINE
  5
1CA
  8
CENTER
 10
5.7350000000000003
 20
4.5750000000000002
 30
0.0
 11
5.915
 21
4.5750000000000002
 31
0.0
  0
LINE
  5
1CB
  8
CENTER
 10
5.8250000000000002
 20
4.4850000000000003
 30
0.0
 11
5.8250000000000002
 21
4.665
 31
0.0
  0
LINE
  5
1CC
  8
CENTER
 10
6.9850000000000003
 20
3.3500000000000001
 30
0.0
 11
7.165
 21
3.3500000000000001
 31
0.0
  0
LINE
  5
1CD
  8
CENTER
 10
7.0750000000000002
 20
3.2599999999999989
 30
0.0
 11
7.0750000000000002
 21
3.4399999999999982
 31
0.0
  0
LINE
  5
1CE
  8
CENTER
 10
5.7350000000000003
 20
1.9750000000000001
 30
0.0
 11
5.915
 21
1.9750000000000001
 31
0.0
  0
LINE
  5
1CF
  8
CENTER
 10
5.8250000000000002
 20
1.8849999999999989
 30
0.0
 11
5.8250000000000002
 21
2.0649999999999991
 31
0.0
  0
LINE
  5
1D0
  8
CENTER
 10
6.9850000000000003
 20
0.75
 30
0.0
 11
7.165
 21
0.75
 31
0.0
  0
LINE
  5
1D1
  8
CENTER
 10
7.0750000000000002
 20
0.6600000000000003
 30
0.0
 11
7.0750000000000002
 21
0.84
 31
0.0
  0
LINE
  5
1D2
  8
CENTER
 10
6.3600000000000003
 20
3.9500000000000002
 30
0.0
 11
6.54
 21
3.9500000000000002
 31
0.0
  0
LINE
  5
1D3
  8
CENTER
 10
6.4500000000000002
 20
3.859999999999999
 30
0.0
 11
6.4500000000000002
 21
4.04
 31
0.0
  0
LINE
  5
1D4
  8
CENTER
 10
6.3600000000000003
 20
1.399999999999999
 30
0.0
 11
6.54
 21
1.399999999999999
 31
0.0
  0
LINE
  5
1D5
  8
CENTER
 10
6.4500000000000002
 20
1.3099999999999981
 30
0.0
 11
6.4500000000000002
 21
1.49
 31
0.0
  0
ARC
  5
1D8
  8
0
 10
4.0
 20
7.0999999999999988
 30
0.0
 40
0.253
 50
119.5918457939505
 51
60.408154206049367
  0
LINE
  5
1DA
  8
0
 10
3.8750640163923928
 20
7.3199999999999994
 30
0.0
 11
4.1249359836076041
 21
7.3199999999999994
 31
0.0
  0
CIRCLE
  5
1EF
  8
0
 10
8.8499999999999979
 20
8.0999999999999996
 30
0.0
 40
0.11
  0
CIRCLE
  5
1F0
  8
0
 10
8.8499999999999979
 20
5.7000000000000002
 30
0.0
 40
0.11
  0
LINE
  5
1F1
  8
CENTER
 10
8.759999999999998
 20
8.0999999999999996
 30
0.0
 11
8.9399999999999977
 21
8.0999999999999996
 31
0.0
  0
LINE
  5
1F2
  8
CENTER
 10
8.8499999999999979
 20
8.009999999999998
 30
0.0
 11
8.8499999999999979
 21
8.1899999999999995
 31
0.0
  0
LINE
  5
1F3
  8
CENTER
 10
8.759999999999998
 20
5.7000000000000002
 30
0.0
 11
8.9399999999999977
 21
5.7000000000000002
 31
0.0
  0
LINE
  5
1F4
  8
CENTER
 10
8.8499999999999979
 20
5.6100000000000003
 30
0.0
 11
8.8499999999999979
 21
5.79
 31
0.0
  0
LINE
  5
1F5
  8
CENTER
 10
2.4100000000000001
 20
2.9999999999999978
 30
0.0
 11
2.5899999999999981
 21
2.9999999999999978
 31
0.0
  0
LINE
  5
1F6
  8
CENTER
 10
2.5
 20
2.9099999999999979
 30
0.0
 11
2.5
 21
3.0899999999999981
 31
0.0
  0
LINE
  5
1F7
  8
CENTER
 10
0.9099999999999999
 20
2.9999999999999978
 30
0.0
 11
1.0900000000000001
 21
2.9999999999999978
 31
0.0
  0
LINE
  5
1F8
  8
CENTER
 10
1.0
 20
2.9099999999999979
 30
0.0
 11
1.0
 21
3.0899999999999981
 31
0.0
  0
LINE
  5
22B
  8
HIDDEN
 10
3.2000000000000002
 20
0.6
 30
0.0
 11
9.6999999999999993
 21
0.6000000000000001
 31
0.0
  0
LINE
  5
22C
  8
HIDDEN
 10
3.2000000000000002
 20
5.5999999999999996
 30
0.0
 11
9.6999999999999993
 21
5.5999999999999988
 31
0.0
  0
LINE
  5
22D
  8
HIDDEN
 10
3.2000000000000002
 20
5.5999999999999996
 30
0.0
 11
3.2000000000000002
 21
0.6000000000000001
 31
0.0
  0
LINE
  5
22E
  8
HIDDEN
 10
9.6999999999999993
 20
5.5999999999999996
 30
0.0
 11
9.6999999999999993
 21
0.6000000000000001
 31
0.0
  0
CIRCLE
  5
231
  8
0
 10
11.0
 20
6.1999999999999984
 30
0.0
 40
0.7875
  0
CIRCLE
  5
232
  8
0
 10
9.838599999999996
 20
5.0385999999999971
 30
0.0
 40
0.1
  0
CIRCLE
  5
233
  8
0
 10
12.16139999999999
 20
5.0385999999999962
 30
0.0
 40
0.1
  0
CIRCLE
  5
234
  8
0
 10
9.8385999999999978
 20
7.3613999999999988
 30
0.0
 40
0.1
  0
CIRCLE
  5
235
  8
0
 10
12.1614
 20
7.3613999999999971
 30
0.0
 40
0.1
  0
LINE
  5
236
  8
HIDDEN
 10
9.9324999999999921
 20
4.7824999999999971
 30
0.0
 11
12.06749999999999
 21
4.7824999999999962
 31
0.0
  0
ARC
  5
237
  8
HIDDEN
 10
9.9324999999999921
 20
5.1324999999999976
 30
0.0
 40
0.35
 50
180.0
 51
270.0
  0
LINE
  5
238
  8
HIDDEN
 10
12.41749999999999
 20
5.1324999999999958
 30
0.0
 11
12.41749999999999
 21
7.2675000000000001
 31
0.0
  0
ARC
  5
239
  8
HIDDEN
 10
12.06749999999999
 20
7.2675000000000001
 30
0.0
 40
0.35
 50
0.0
 51
90.0
  0
ARC
  5
23A
  8
HIDDEN
 10
12.06749999999999
 20
5.1324999999999958
 30
0.0
 40
0.35
 50
270.0
 51
0.0
  0
LINE
  5
23B
  8
HIDDEN
 10
12.06749999999999
 20
7.6174999999999988
 30
0.0
 11
9.9324999999999921
 21
7.6175000000000033
 31
0.0
  0
ARC
  5
23C
  8
HIDDEN
 10
9.9324999999999921
 20
7.2675000000000027
 30
0.0
 40
0.35
 50
90.0
 51
180.0
  0
LINE
  5
23D
  8
HIDDEN
 10
9.5824999999999925
 20
7.2675000000000027
 30
0.0
 11
9.5824999999999942
 21
5.1324999999999976
 31
0.0
  0
LINE
  5
23E
  8
CENTER
 10
9.9285999999999959
 20
5.0385999999999971
 30
0.0
 11
9.7485999999999962
 21
5.0385999999999971
 31
0.0
  0
LINE
  5
23F
  8
CENTER
 10
9.838599999999996
 20
4.9485999999999981
 30
0.0
 11
9.838599999999996
 21
5.1285999999999969
 31
0.0
  0
LINE
  5
240
  8
CENTER
 10
12.25139999999999
 20
5.0385999999999962
 30
0.0
 11
12.071400000000001
 21
5.0385999999999962
 31
0.0
  0
LINE
  5
241
  8
CENTER
 10
12.16139999999999
 20
4.9485999999999963
 30
0.0
 11
12.16139999999999
 21
5.1285999999999961
 31
0.0
  0
LINE
  5
242
  8
CENTER
 10
12.2514
 20
7.3613999999999971
 30
0.0
 11
12.071400000000001
 21
7.3613999999999971
 31
0.0
  0
LINE
  5
243
  8
CENTER
 10
12.1614
 20
7.2713999999999972
 30
0.0
 11
12.1614
 21
7.4513999999999969
 31
0.0
  0
LINE
  5
244
  8
CENTER
 10
9.9285999999999976
 20
7.3613999999999988
 30
0.0
 11
9.7485999999999962
 21
7.3613999999999988
 31
0.0
  0
LINE
  5
245
  8
CENTER
 10
9.8385999999999978
 20
7.2713999999999981
 30
0.0
 11
9.8385999999999978
 21
7.4513999999999987
 31
0.0
  0
LINE
  5
246
  8
CENTER
 10
11.089999999999989
 20
6.1999999999999984
 30
0.0
 11
10.909999999999989
 21
6.1999999999999984
 31
0.0
  0
LINE
  5
247
  8
CENTER
 10
11.0
 20
6.1099999999999977
 30
0.0
 11
11.0
 21
6.2899999999999974
 31
0.0
  0
CIRCLE
  5
24A
  8
0
 10
1.5
 20
8.0999999999999996
 30
0.0
 40
0.2625
  0
CIRCLE
  5
24B
  8
0
 10
2.2999999999999989
 20
8.0999999999999996
 30
0.0
 40
0.2625
  0
LINE
  5
24C
  8
CENTER
 10
2.2099999999999991
 20
8.0999999999999996
 30
0.0
 11
2.3899999999999988
 21
8.0999999999999996
 31
0.0
  0
LINE
  5
24D
  8
CENTER
 10
2.2999999999999989
 20
8.0099999999999998
 30
0.0
 11
2.2999999999999989
 21
8.1899999999999995
 31
0.0
  0
LINE
  5
24E
  8
CENTER
 10
1.409999999999999
 20
8.0999999999999996
 30
0.0
 11
1.5900000000000001
 21
8.0999999999999996
 31
0.0
  0
LINE
  5
24F
  8
CENTER
 10
1.5
 20
8.0099999999999998
 30
0.0
 11
1.5
 21
8.1899999999999995
 31
0.0
  0
CIRCLE
  5
250
  8
0
 10
11.4
 20
8.0999999999999961
 30
0.0
 40
0.2625
  0
CIRCLE
  5
251
  8
0
 10
10.6
 20
8.0999999999999979
 30
0.0
 40
0.2625
  0
LINE
  5
252
  8
CENTER
 10
10.69
 20
8.0999999999999979
 30
0.0
 11
10.51
 21
8.0999999999999979
 31
0.0
  0
LINE
  5
253
  8
CENTER
 10
10.6
 20
8.009999999999998
 30
0.0
 11
10.6
 21
8.1899999999999977
 31
0.0
  0
LINE
  5
254
  8
CENTER
 10
11.49
 20
8.0999999999999961
 30
0.0
 11
11.31
 21
8.0999999999999961
 31
0.0
  0
LINE
  5
255
  8
CENTER
 10
11.4
 20
8.0099999999999962
 30
0.0
 11
11.4
 21
8.1899999999999942
 31
0.0
  0
ENDSEC
  0
EOF
